Tuesday, December 03, 2013
GUITAR COVER JOE SATRIANI - SUPER COLLOSAL, GUITAR TAB JOE SATRIANI - SUPER COLLOSAL, GUITAR CHORD JOE SATRIANI - SUPER COLLOSAL, GUITAR MELODIC JOE SATRIANI - SUPER COLLOSAL, LEARN HOW TO PLAY JOE SATRIANI - SUPER COLLOSAL

#Intro 1
6|--10-5-3-1-5-3-5-3 * 10-5-3-1-5-3-5-1-3-1--
5|--------------------------------------------------------------------
4|--------------------------------------------------------------------
3|--------------------------------------------------------------------
2|--------------------------------------------------------------------
1|--------------------------------------------------------------------

6|--10-5-3-1-5-3-5-3 * 10-5-3-1--
5|--------------------------------------------------------------------
4|--------------------------------------------------------------------
3|--------------------------------------------------------------------
2|--------------------------------------------------------------------
1|--------------------------------------------------------------------

6|--------------------------------------------------------------------
5|--------------------------------------------------------------------
4|--------------------------------------------------------------------
3|--12h-10-8-10h (Repeat Four Times) 8-10--
2|--------------------------------------------------------------------
1|--------------------------------------------------------------------

#Chord: D-A-G-A (Bass String 5)
6|--------------------------------------------------------------------
5|--------------------------------------------------------------------
4|--------------------------------------------------------------------
3|--------------------------------------------------------------------
2|--20-22-24-22-24h-24-22-20-18-20-22-20-22-20--
1|--------------------------------------------------------------------

#Chords Lower One Octave (Bass String 6)
6|--------------------------------------------------------------------
5|--------------------------------------------------------------------
4|--------------------------------------------------------------------
3|--12-14-16-14-16h-16-14-12-10-12-14-12-10-12-14--
2|--------------------------------------------------------------------
1|--------------------------------------------------------------------

#Chords Higher One Octave (Bass String 5)
6|--------------------------------------------------------------------
5|--------------------------------------------------------------------
4|--------------------------------------------------------------------
3|--------------------------------------------------------------------
2|--20-22-24-22-24h-24-22-20-18-20-22-20-22-20--
1|--------------------------------------------------------------------

#Chords Lower One Octave (Bass String 6)
6|--------------------------------------------------------------------
5|--------------------------------------------------------------------
4|--------------------------------------------------------------------
3|--12-14-16-14-16h-16-14-12-10-12-14-12-10-12-14--
2|--------------------------------------------------------------------
1|--------------------------------------------------------------------

#Chord: Bm-D-G-A (Bass String 5)
6|--------------------------------------------------------------------
5|--------------------------------------------------------------------
4|--------------------------------------------------------------------
3|--------------------------------------------------------------------
2|--18-20-26-22-24-24-20 * 18-20-24-24-22-18-20--
1|--------------------------------------------------------------------

6|--------------------------------------------------------------------
5|--------------------------------------------------------------------
4|--------------------------------------------------------------------
3|--------------------------------------------------------------------
2|--18-20-26-22-24-24-18-20-18 * 24-24-22-24-20 * 24-24-22-24-18-20-18--
1|--------------------------------------------------------------------

#Intro 2
6|--10-5-3-1-5-3-5-3 * 10-5-3-1-5-3-5-1-3-1--
5|--------------------------------------------------------------------
4|--------------------------------------------------------------------
3|--------------------------------------------------------------------
2|--------------------------------------------------------------------
1|--------------------------------------------------------------------

6|--10-5-3-1-5-3-5-3 * 10-5-3-1--
5|--------------------------------------------------------------------
4|--------------------------------------------------------------------
3|--------------------------------------------------------------------
2|--------------------------------------------------------------------
1|--------------------------------------------------------------------

6|--------------------------------------------------------------------
5|--------------------------------------------------------------------
4|--------------------------------------------------------------------
3|--12h-10-8-10h (4x) - 0 --
2|--- 0 - 0 -0- 0 ----------20h--
1|--------------------------------------------------------------------

#Chord: DD-GG-DD-AA (Bass String 5)
6|--------------------------------------------------------------------
5|--------------------------------------------------------------------
4|--------------------------------------------------------------------
3|--------------------------------------------------------------------
2|--20h-14-16-14-20h-14-16-14-14h-14h-14-16-14--
1|--------------------------------------------------------------------

6|--------------------------------------------------------------------
5|--------------------------------------------------------------------
4|--------------------------------------------------------------------
3|--------------------------------------------------------------------
2|--20h-14-16-14-16-14-14-16-14--
1|--------------------------------------------------------------------

6|--------------------------------------------------------------------
5|--------------------------------------------------------------------
4|--------------------------------------------------------------------
3|--------------------------------------------------------------------
2|--14-16-14-16-20h-14-16-14-20h-14-16-14-14h-14-16-14
1|--------------------------------------------------------------------

6|--------------------------------------------------------------------
5|--------------------------------------------------------------------
4|--------------------------------------------------------------------
3|--------------------------------------------------------------------
2|--14-16-14-16-20h-14/16-20h-14/16-20h * 20h-14/16-20h-14/16-20h-14/16 * 20h-14/16-20h-14/16/14-14h * 20h-14/16/14-14h-14/16/14-14h--
1|--------------------------------------------------------------------

6|--------------------------------------------------------------------
5|--------------------------------------------------------------------
4|--------------------------------------------------------------------
3|--------------------------------------------------------------------
2|--14-20h-14-16-20h-14/16/14-14h-14/16/14-14h--
1|--------------------------------------------------------------------

6|--------------------------------------------------------------------
5|--------------------------------------------------------------------
4|--------------------------------------------------------------------
3|--------------------------------------------------------------------
2|--20h-14-16-20h-14/16/14-14h * 20h-14-16-20h-14-16-20h-14-20h-14-20h-14-20h-18-20h * 20h-14-16-20h-14-16-14/16/14--
1|--------------------------------------------------------------------

6|--------------------------------------------------------------------
5|--------------------------------------------------------------------
4|--------------------------------------------------------------------
3|--12h-12-10-12-8-10 * 12h-6-8-12h-6-8-12h-6-8-6-8-6
2|--------------------------------------------------------------------
1|--------------------------------------------------------------------

Here, you play again the first melodic, the difference is just its last intro..

#Intro 3
6|--10-5-3-1-5-3-5-3 * 10-5-3-1-5-3-5-1-3-1
5|--------------------------------------------------------------------
4|--------------------------------------------------------------------
3|--------------------------------------------------------------------
2|--------------------------------------------------------------------
1|--------------------------------------------------------------------

6|--10-5-3-1-5-3-5-3 * 10-5-3-1
5|--------------------------------------------------------------------
4|--------------------------------------------------------------------
3|--------------------------------------------------------------------
2|--------------------------------------------------------------------
1|--------------------------------------------------------------------

6|--------------------------------------------------------------------
5|-----------------------10h-8-6-8h (4x)------------------------
4|--------------------------------------------------------------------
3|--12h-10-8-10h (4x) ------------------- 12h-10-8-10h (4x) 8-10
2|--------------------------------------------------------------------
1|--------------------------------------------------------------------

2 comments:

  1. Correction chord: it's C-G/F

    Bass and rhytm play betwen string 5 and 6..

    ReplyDelete