Saturday, January 18, 2014
Guitar Cover Andra And The Backbone - Love Faith And Hope, Guitar Tab Andra And The Backbone - Love Faith And Hope, Guitar Chord Andra And The Backbone - Love Faith And Hope, Learn How To Play Andra And The Backbone - Love Faith And Hope

Chord is C-G-F-G | BX7EXAVN4GKN

#Intro

6|--------------------------------------------------------------------
5|--------------------------------------------------------------------
4|--------------------------------------------------------------------
3|-- 0 - 0 - 0 -0-7-6-5-G--
2|--14-13-12-7-0-0-0-0--
1|--------------------------------------------------------------------

#Play

6|--------------------------------------------------------------------
5|--------------------------------------------------------------------
4|--------------------------------------------------------------------
3|--------------------------------------------------------------------
2|--10-12-7-9-7-5-9-7-5-3 * 10-12-7-9-7-5-9-7-5-3/5/3--
1|--------------------------------------------------------------------

6|--------------------------------------------------------------------
5|--------------------------------------------------------------------
4|--------------------------------------------------------------------
3|--------------------------------------------------------------------
2|--10-12-14-12-7-14-12-10-12-14-12-10--
1|--------------------------------------------------------------------

6|--------------------------------------------------------------------
5|--------------------------------------------------------------------
4|--------------------------------------------------------------------
3|--------------------------------------------------------------------
2|--10-12-14-12-7-14-12-10-12-14-14h-14-12--
1|--------------------------------------------------------------------

6|--------------------------------------------------------------------
5|--------------------------------------------------------------------
4|--------------------------------------------------------------------
3|--------------------------------------------------------------------
2|--10-5-7-9-7-5-9-7-5-3 * 10-5-7-9-7-5-3--
1|--------------------------------------------------------------------

6|--------------------------------------------------------------------
5|--------------------------------------------------------------------
4|--------------------------------------------------------------------
3|-- 0 - 0 -- 0 -0-0-0-0- 0 -0-0-0-3 * 0-00000000000000
2|--14-12 -10-9-7-5-3-5h-5-3-1-0 * 14-12 -10-9-7-5-3-5-7-3-5-7-7h-7-5--
1|--------------------------------------------------------------------

6|--------------------------------------------------------------------
5|--------------------------------------------------------------------
4|--------------------------------------------------------------------
3|--------------------------------------------------------------------
2|--14-7-12-5 -3-5-9h-9-7 * 14- 0 -12- 0 - 0 - 0 - 0 --
1|-- 0 -0- 0 -0 -0-0- 0 -0-0 * 0 --14- 0 -12-10-12-16h--

6|--------------------------------------------------------------------
5|--------------------------------------------------------------------
4|--------------------------------------------------------------------
3|-- 0 ---- 0 - 0 - 0 -- 0 * 0 -- 0 -- 0 -- 0 --0--11h-9h-7h--
2|-- 0 ---- 0 - 0 - 0 -- 0 * 0 -- 0 --13h-11h-9h- 000000--
1|--16hhh-14h-12h-10h-14 * 12h-10h- 00000000--

6|--------------------------------------------------------------------
5|--------------------------------------------------------------------
4|--------------------------------------------------------------------
3|--7777-00000000000000
2|--0000- 0 -- 10h-6/8-10h-6/8-8h-4/6-8-12- 0 - 0 -- 0 / 0 - 0 -- 0 / 0 - 0 / 0 -11/13-15h-11/13-15/13--
1|--0000-17h- 0 --0/0- 0 --0/0- 0 -0/0-0- 0 -12-16h-10/12-14h-10/12-14/12- 000000

6|--------------------------------------------------------------------
5|--------------------------------------------------------------------
4|--------------------------------------------------------------------
3|--------------------------------------------------------------------
2|--11-13- 0 -13-11- 0 -13-11-14-13-11-13 * 13-11- 0 -13-11- 0 -13-11-14-13-11-13 * 13-11-13
1|-- 0 - 0 -11- 0 - 0 -13- 0 - 0 - 0 - 0 - 0 -- 0 * 0 -- 0 -11- 0 - 0 -13- 0 - 0 - 0 - 0 - 0 -- 0 * 0 -- 0 - 0

6|--------------------------------------------------------------------
5|--------------------------------------------------------------------
4|--------------------------------------------------------------------
3|--------------------------------------------------------------------
2|--11-13-15h- 0 ---- 0 * 0 / 0 ----18/20---- 0 / 0 ----18/20--
1|-- 0 - 0 - 0 --15h-20h * 18/20---- 0 / 0 ----18/20---- 0 / 0 --

6|--------------------------------------------------------------------
5|--------------------------------------------------------------------
4|--------------------------------------------------------------------
3|--------------------------------------------------------------------
2|--10-12-7 -9-7-5-9-7-5-3 * 10-12-7-9-7-5-3--
1|--------------------------------------------------------------------

6|--------------------------------------------------------------------
5|--------------------------------------------------------------------
4|--------------------------------------------------------------------
3|-- 0 - 0 - 0 -0-0-0-0 - 0 --0-0-0-3 * 0000000000000000
2|--14-12-10-9-7-5-3 -5h-5-3-1-0 * 14-12-10-9-7-5-3-5-7-3-5-7-7h-7-5
1|--------------------------------------------------------------------

6|--------------------------------------------------------------------
5|--------------------------------------------------------------------
4|--------------------------------------------------------------------
3|--------------------------------------------------------------------
2|--14-7-12-5 -3/5-9h-9-7 * 14-7-12-5 - 0 - 0 - 0 ---
1|-- 0 -0- 0 -0 -0/0- 0 -0-0 * 0 --0- 0 -0 -10-12-14h--

6|--------------------------------------------------------------------
5|--------------------------------------------------------------------
4|--------------------------------------------------------------------
3|--------------------------------------------------------------------
2|--14- 0 -12- 0 -- 0 - 0 -- 0 * 14-7-12-5 - 0 - 0 - 0 ---
1|-- 0 -14- 0 -12 -10-12-14h * 0 --0- 0 -0 -10-12-14h--

#Intro

Repeated 4 times.

6|--------------------------------------------------------------------
5|--------------------------------------------------------------------
4|--------------------------------------------------------------------
3|-- 0 - 0 - 0 -0 * 7-6-5-G--
2|--14-13-12-7 * 0-0-0-0--
1|--------------------------------------------------------------------

1 comments: