Monday, November 18, 2013
Learn How To Play Guitar Solo Andra And The Backbone - Keajaiban, Guitar Cover Andra And The Backbone - Keajaiban, Guitar Chord Andra And The Backbone - Keajaiban, Guitar Tab Andra And The Backbone - Keajaiban, Guitar Melodic Andra And The Backbone - Keajaiban

I like this one. There are currently four instrumental musics andra has released so far, but only two of those instrumental that i like the most, keajaiban and surrender. Means, might i will not cover the other instrumentals, but, maybe you can try to request to me if you like them..

Well, to play this instrumental, actually any instrumental music, you need to run your sense, don't just play it exactly how i lead you using the tab. You will have to slide your string etc. But for this instrument, everything is done just using the basic trick, if you have played guitar quite a while, you should know every trick used in this song.

Here we go..

#Chord: C-G-F.

#Part I
6|----------------------------------------------------------------------
5|----------------------------------------------------------------------
4|----------------------------------------------------------------------
3|----------------------------------------------------------------------
2|--12h-10-8-10h-8h -- 12h-10-10-8-10-6-8--
1|----------------------------------------------------------------------

6|----------------------------------------------------------------------
5|----------------------------------------------------------------------
4|----------------------------------------------------------------------
3|----------------------------------------------------------------------
2|--12h-10-8-10h-8-6-8h -- 12h-10-8-10h-8h-8h-6-8h-6--
1|----------------------------------------------------------------------

6|----------------------------------------------------------------------
5|----------------------------------------------------------------------
4|----------------------------------------------------------------------
3|----------------------------------------------------------------------
2|--6-8-6-8h-6-8h-6-8 -- 6-8-6-8h-8h-8-8h-6-8h--
1|----------------------------------------------------------------------

6|----------------------------------------------------------------------
5|----------------------------------------------------------------------
4|----------------------------------------------------------------------
3|----------------------------------------------------------------------
2|--12h-10-8-10h-8h-10h-8-6-8h -- 12h-10-8-10h--
1|----------------------------------------------------------------------

6|----------------------------------------------------------------------
5|----------------------------------------------------------------------
4|----------------------------------------------------------------------
3|----------------------------------------------------------------------
2|----------------------------------------------------------------------
1|--13-15-15h-15h-15h-13-15 -- 13-15-15h-15h-15h--

6|----------------------------------------------------------------------
5|----------------------------------------------------------------------
4|----------------------------------------------------------------------
3|----------------------------------------------------------------------
2|----------------------------------------------------------------------
1|--13-15-13-15h-13-17h-17h-13-15h -- 15h-13-15h-13-17h--

6|----------------------------------------------------------------------
5|----------------------------------------------------------------------
4|----------------------------------------------------------------------
3|----------------------------------------------------------------------
2|----------------------------------------------------------------------
1|--15h-13-17h-13-15h--

6|----------------------------------------------------------------------
5|----------------------------------------------------------------------
4|----------------------------------------------------------------------
3|----------------------------------------------------------------------
2|----------------------------------------------------------------------
1|--13-15-17h-15-13-15h-13-17h-15-13-15h-13-17h-15-13-17h-17h--

6|----------------------------------------------------------------------
5|----------------------------------------------------------------------
4|----------------------------------------------------------------------
3|----------------------------------------------------------------------
2|----------------------------------------------------------------------
1|--17h-15-17h-15-17h-15-17h-15-13-17h--

6|----------------------------------------------------------------------
5|----------------------------------------------------------------------
4|----------------------------------------------------------------------
3|----------------------------------------------------------------------
2|----------------------------------------------------------------------
1|--13-15h-15h-13-15h-15h-13--

6|----------------------------------------------------------------------
5|----------------------------------------------------------------------
4|----------------------------------------------------------------------
3|----------------------------------------------------------------------
2|----------------------------------------------------------------------
1|--13-15-13-15h-13-17h-15-13-15h-13-17h-15-13-15h--

6|----------------------------------------------------------------------
5|----------------------------------------------------------------------
4|----------------------------------------------------------------------
3|----------------------------------------------------------------------
2|----------------------------------------------------------------------
1|--13-15h-15h-13-15h-15h-13--

6|----------------------------------------------------------------------
5|----------------------------------------------------------------------
4|----------------------------------------------------------------------
3|----------------------------------------------------------------------
2|----------------------------------------------------------------------
1|--13-15-13-15h-13-17h-15-13-17h-17h--

6|----------------------------------------------------------------------
5|----------------------------------------------------------------------
4|----------------------------------------------------------------------
3|----------------------------------------------------------------------
2|--10h-8h-8-6-8-6/8-6-4 -- 10h-8h-8-6-8-6-8-6-8-6-8-6-8--
1|----------------------------------------------------------------------

#Part II
6|----------------------------------------------------------------------
5|----------------------------------------------------------------------
4|----------------------------------------------------------------------
3|----------------------------------------------------------------------
2|----------------------------------------------------------------------
1|--17h-15-17h-17h-15-13-15h--

6|----------------------------------------------------------------------
5|----------------------------------------------------------------------
4|----------------------------------------------------------------------
3|----------------------------------------------------------------------
2|----------------------------------------------------------------------
1|--13-15-13-15h-13-17h-15-13-15h-13-15h-13-17h-15-13-15h-13-17h-15-13-15h-13-15h-13-15h

6|----------------------------------------------------------------------
5|----------------------------------------------------------------------
4|----------------------------------------------------------------------
3|----------------------------------------------------------------------
2|----------------------------------------------------------------------
1|--17h-15-13-15h-13-17h-15-13-15h-13-17h-15-13-15h-13-17h-15-13-15h--

6|----------------------------------------------------------------------
5|----------------------------------------------------------------------
4|----------------------------------------------------------------------
3|----------------------------------------------------------------------
2|----------------------------------------------------------------------
1|--17h-15-13-15h-13-17h-15-13-15h-13-17h-15-13-15h-13-15h--

6|----------------------------------------------------------------------
5|----------------------------------------------------------------------
4|----------------------------------------------------------------------
3|----------------------------------------------------------------------
2|--6-8h-6-8h -- 6-8-6-8h-6-10h-8-6-8h-6-10h--
1|----------------------------------------------------------------------

6|----------------------------------------------------------------------
5|----------------------------------------------------------------------
4|----------------------------------------------------------------------
3|----------------------------------------------------------------------
2|--6-8-6-8h-6-10h-8-6-8h -- 6-8h-6-10h-6-8h--
1|----------------------------------------------------------------------

6|----------------------------------------------------------------------
5|----------------------------------------------------------------------
4|----------------------------------------------------------------------
3|----------------------------------------------------------------------
2|----------------------------------------------------------------------
1|--13-17h-15-13-15h-13-17h-15-13-15h-13-17h-15-13-15h-13-17h-15-13-15h-13-17h-15h-15h-13-17h-15-13-15h--

6|----------------------------------------------------------------------
5|----------------------------------------------------------------------
4|----------------------------------------------------------------------
3|----------------------------------------------------------------------
2|--6-8-6-8h-6-10h-8-6-8h-6-8h-6-10h-8-6-8h-6-8h-6-8h--
1|----------------------------------------------------------------------

6|----------------------------------------------------------------------
5|----------------------------------------------------------------------
4|----------------------------------------------------------------------
3|----------------------------------------------------------------------
2|--10h-8-6-8h-8h-8h -- 10h-8-6-8h-8h-8h-8h-10h-8--
1|----------------------------------------------------------------------

6|----------------------------------------------------------------------
5|----------------------------------------------------------------------
4|----------------------------------------------------------------------
3|----------------------------------------------------------------------
2|----------------------------------------------------------------------
1|--17h-15-13-15h-13-17h-15-13-15h-13-15h-13-17h--

6|----------------------------------------------------------------------
5|----------------------------------------------------------------------
4|----------------------------------------------------------------------
3|----------------------------------------------------------------------
2|----------------------------------------------------------------------
1|--17h-15-13-17h-15-13-17h-15-13-17h-15-13--

6|----------------------------------------------------------------------
5|----------------------------------------------------------------------
4|----------------------------------------------------------------------
3|----------------------------------------------------------------------
2|--10h-8-6-10h-8-6-10h-8-6-10h-8--
1|----------------------------------------------------------------------

6|----------------------------------------------------------------------
5|----------------------------------------------------------------------
4|----------------------------------------------------------------------
3|-----------------2-------------------------------------------------
2|--10h-8h-8-6---12-14------------------------------------------
1|---------------------------21h------------------------------------

0 comments:

Post a Comment